  0
SECTION
  2
HEADER
  9
$ACADVER
  1
AC1015
  9
$ACADMAINTVER
 70
     6
  9
$DWGCODEPAGE
  3
ANSI_1254
  9
$INSBASE
 10
0.0
 20
0.0
 30
0.0
  9
$EXTMIN
 10
0.0
 20
0.0
 30
0.0
  9
$EXTMAX
 10
279.4
 20
215.9
 30
0.0
  9
$LIMMIN
 10
0.0
 20
0.0
  9
$LIMMAX
 10
279.4
 20
215.9
  9
$ORTHOMODE
 70
     0
  9
$REGENMODE
 70
     1
  9
$FILLMODE
 70
     1
  9
$QTEXTMODE
 70
     0
  9
$MIRRTEXT
 70
     1
  9
$LTSCALE
 40
1.0
  9
$ATTMODE
 70
     1
  9
$TEXTSIZE
 40
3.5
  9
$TRACEWID
 40
1.0
  9
$TEXTSTYLE
  7
Standard
  9
$CLAYER
  8
0
  9
$CELTYPE
  6
ByLayer
  9
$CECOLOR
 62
   256
  9
$CELTSCALE
 40
1.0
  9
$DISPSILH
 70
     0
  9
$DIMSCALE
 40
1.0
  9
$DIMASZ
 40
3.5
  9
$DIMEXO
 40
1.0
  9
$DIMDLI
 40
3.75
  9
$DIMRND
 40
0.0
  9
$DIMDLE
 40
0.0
  9
$DIMEXE
 40
1.0
  9
$DIMTP
 40
0.0
  9
$DIMTM
 40
0.0
  9
$DIMTXT
 40
3.5
  9
$DIMCEN
 40
2.5
  9
$DIMTSZ
 40
0.0
  9
$DIMTOL
 70
     0
  9
$DIMLIM
 70
     0
  9
$DIMTIH
 70
     1
  9
$DIMTOH
 70
     1
  9
$DIMSE1
 70
     0
  9
$DIMSE2
 70
     0
  9
$DIMTAD
 70
     1
  9
$DIMZIN
 70
     0
  9
$DIMBLK
  1

  9
$DIMASO
 70
     1
  9
$DIMSHO
 70
     1
  9
$DIMPOST
  1

  9
$DIMAPOST
  1

  9
$DIMALT
 70
     0
  9
$DIMALTD
 70
     3
  9
$DIMALTF
 40
0.0393700787
  9
$DIMLFAC
 40
1.0
  9
$DIMTOFL
 70
     1
  9
$DIMTVP
 40
0.0
  9
$DIMTIX
 70
     0
  9
$DIMSOXD
 70
     0
  9
$DIMSAH
 70
     0
  9
$DIMBLK1
  1

  9
$DIMBLK2
  1

  9
$DIMSTYLE
  2
ISO-25
  9
$DIMCLRD
 70
     0
  9
$DIMCLRE
 70
     0
  9
$DIMCLRT
 70
     0
  9
$DIMTFAC
 40
1.0
  9
$DIMGAP
 40
1.524
  9
$DIMJUST
 70
     0
  9
$DIMSD1
 70
     0
  9
$DIMSD2
 70
     0
  9
$DIMTOLJ
 70
     0
  9
$DIMTZIN
 70
     0
  9
$DIMALTZ
 70
     0
  9
$DIMALTTZ
 70
     0
  9
$DIMUPT
 70
     0
  9
$DIMDEC
 70
     2
  9
$DIMTDEC
 70
     2
  9
$DIMALTU
 70
     2
  9
$DIMALTTD
 70
     3
  9
$DIMTXSTY
  7
Standard
  9
$DIMAUNIT
 70
     0
  9
$DIMADEC
 70
     2
  9
$DIMALTRND
 40
0.0
  9
$DIMAZIN
 70
     0
  9
$DIMDSEP
 70
    44
  9
$DIMATFIT
 70
     3
  9
$DIMFRAC
 70
     0
  9
$DIMLDRBLK
  1

  9
$DIMLUNIT
 70
     2
  9
$DIMLWD
 70
    -2
  9
$DIMLWE
 70
    -2
  9
$DIMTMOVE
 70
     0
  9
$LUNITS
 70
     2
  9
$LUPREC
 70
     2
  9
$SKETCHINC
 40
1.0
  9
$FILLETRAD
 40
10.0
  9
$AUNITS
 70
     0
  9
$AUPREC
 70
     2
  9
$MENU
  1
.
  9
$ELEVATION
 40
0.0
  9
$PELEVATION
 40
0.0
  9
$THICKNESS
 40
0.0
  9
$LIMCHECK
 70
     0
  9
$CHAMFERA
 40
0.0
  9
$CHAMFERB
 40
0.0
  9
$CHAMFERC
 40
0.0
  9
$CHAMFERD
 40
0.0
  9
$SKPOLY
 70
     0
  9
$TDCREATE
 40
2459935.709712732
  9
$TDUCREATE
 40
2459935.584712732
  9
$TDUPDATE
 40
2459935.709712905
  9
$TDUUPDATE
 40
2459935.584712905
  9
$TDINDWG
 40
0.0000000116
  9
$TDUSRTIMER
 40
0.0000000116
  9
$USRTIMER
 70
     1
  9
$ANGBASE
 50
0.0
  9
$ANGDIR
 70
     0
  9
$PDMODE
 70
     0
  9
$PDSIZE
 40
-1.0
  9
$PLINEWID
 40
0.0
  9
$SPLFRAME
 70
     0
  9
$SPLINETYPE
 70
     6
  9
$SPLINESEGS
 70
     8
  9
$HANDSEED
  5
F5
  9
$SURFTAB1
 70
     6
  9
$SURFTAB2
 70
     6
  9
$SURFTYPE
 70
     6
  9
$SURFU
 70
     6
  9
$SURFV
 70
     6
  9
$UCSBASE
  2

  9
$UCSNAME
  2

  9
$UCSORG
 10
0.0
 20
0.0
 30
0.0
  9
$UCSXDIR
 10
1.0
 20
0.0
 30
0.0
  9
$UCSYDIR
 10
0.0
 20
1.0
 30
0.0
  9
$UCSORTHOREF
  2

  9
$UCSORTHOVIEW
 70
     0
  9
$UCSORGTOP
 10
0.0
 20
0.0
 30
0.0
  9
$UCSORGBOTTOM
 10
0.0
 20
0.0
 30
0.0
  9
$UCSORGLEFT
 10
0.0
 20
0.0
 30
0.0
  9
$UCSORGRIGHT
 10
0.0
 20
0.0
 30
0.0
  9
$UCSORGFRONT
 10
0.0
 20
0.0
 30
0.0
  9
$UCSORGBACK
 10
0.0
 20
0.0
 30
0.0
  9
$PUCSBASE
  2

  9
$PUCSNAME
  2

  9
$PUCSORG
 10
0.0
 20
0.0
 30
0.0
  9
$PUCSXDIR
 10
1.0
 20
0.0
 30
0.0
  9
$PUCSYDIR
 10
0.0
 20
1.0
 30
0.0
  9
$PUCSORTHOREF
  2

  9
$PUCSORTHOVIEW
 70
     0
  9
$PUCSORGTOP
 10
0.0
 20
0.0
 30
0.0
  9
$PUCSORGBOTTOM
 10
0.0
 20
0.0
 30
0.0
  9
$PUCSORGLEFT
 10
0.0
 20
0.0
 30
0.0
  9
$PUCSORGRIGHT
 10
0.0
 20
0.0
 30
0.0
  9
$PUCSORGFRONT
 10
0.0
 20
0.0
 30
0.0
  9
$PUCSORGBACK
 10
0.0
 20
0.0
 30
0.0
  9
$USERI1
 70
     0
  9
$USERI2
 70
     0
  9
$USERI3
 70
     0
  9
$USERI4
 70
     0
  9
$USERI5
 70
     0
  9
$USERR1
 40
0.0
  9
$USERR2
 40
0.0
  9
$USERR3
 40
0.0
  9
$USERR4
 40
0.0
  9
$USERR5
 40
0.0
  9
$WORLDVIEW
 70
     1
  9
$SHADEDGE
 70
     3
  9
$SHADEDIF
 70
    70
  9
$TILEMODE
 70
     1
  9
$MAXACTVP
 70
    64
  9
$PINSBASE
 10
0.0
 20
0.0
 30
0.0
  9
$PLIMCHECK
 70
     0
  9
$PEXTMIN
 10
1.0000000000E+20
 20
1.0000000000E+20
 30
1.0000000000E+20
  9
$PEXTMAX
 10
-1.0000000000E+20
 20
-1.0000000000E+20
 30
-1.0000000000E+20
  9
$PLIMMIN
 10
0.0
 20
0.0
  9
$PLIMMAX
 10
420.0
 20
297.0
  9
$UNITMODE
 70
     0
  9
$VISRETAIN
 70
     1
  9
$PLINEGEN
 70
     0
  9
$PSLTSCALE
 70
     1
  9
$TREEDEPTH
 70
  3020
  9
$CMLSTYLE
  2
Standard
  9
$CMLJUST
 70
     0
  9
$CMLSCALE
 40
20.0
  9
$PROXYGRAPHICS
 70
     1
  9
$MEASUREMENT
 70
     1
  9
$CELWEIGHT
370
    -1
  9
$ENDCAPS
280
     0
  9
$JOINSTYLE
280
     0
  9
$LWDISPLAY
290
     1
  9
$INSUNITS
 70
     4
  9
$HYPERLINKBASE
  1

  9
$STYLESHEET
  1

  9
$XEDIT
290
     1
  9
$CEPSNTYPE
380
     0
  9
$PSTYLEMODE
290
     1
  9
$FINGERPRINTGUID
  2
{7df65f96-35f1-456a-8f87-160a315cef40}
  9
$VERSIONGUID
  2
{FAEB1C32-E019-11D5-929B-00C0DF256EC4}
  9
$EXTNAMES
290
     1
  9
$PSVPSCALE
 40
0.0
  9
$OLESTARTUP
290
     0
  0
ENDSEC
  0
SECTION
  2
CLASSES
  0
CLASS
  1
ACDBDICTIONARYWDFLT
  2
AcDbDictionaryWithDefault
  3
ObjectDBX Classes
 90
        0
280
     0
281
     0
  0
CLASS
  1
VISUALSTYLE
  2
AcDbVisualStyle
  3
ObjectDBX Classes
 90
     4095
280
     0
281
     0
  0
CLASS
  1
MATERIAL
  2
AcDbMaterial
  3
ObjectDBX Classes
 90
     1153
280
     0
281
     0
  0
CLASS
  1
SCALE
  2
AcDbScale
  3
ObjectDBX Classes
 90
     1153
280
     0
281
     0
  0
CLASS
  1
TABLESTYLE
  2
AcDbTableStyle
  3
ObjectDBX Classes
 90
     4095
280
     0
281
     0
  0
CLASS
  1
MLEADERSTYLE
  2
AcDbMLeaderStyle
  3
ACDB_MLEADERSTYLE_CLASS
 90
     4095
280
     0
281
     0
  0
CLASS
  1
SUN
  2
AcDbSun
  3
SCENEOE
 90
     1153
280
     0
281
     0
  0
CLASS
  1
ACDBPLACEHOLDER
  2
AcDbPlaceHolder
  3
ObjectDBX Classes
 90
        0
280
     0
281
     0
  0
CLASS
  1
LAYOUT
  2
AcDbLayout
  3
ObjectDBX Classes
 90
        0
280
     0
281
     0
  0
ENDSEC
  0
SECTION
  2
TABLES
  0
TABLE
  2
VPORT
  5
8
330
0
100
AcDbSymbolTable
 70
     1
  0
VPORT
  5
29
330
8
100
AcDbSymbolTableRecord
100
AcDbViewportTableRecord
  2
*Active
 70
     0
 10
0.0
 20
0.0
 11
1.0
 21
1.0
 12
139.7
 22
107.95
 13
0.0
 23
0.0
 14
10.0
 24
10.0
 15
10.0
 25
10.0
 16
0.0
 26
0.0
 36
1.0
 17
0.0
 27
0.0
 37
0.0
 40
215.9
 41
1.2941176471
 42
50.0
 43
0.0
 44
0.0
 50
0.0
 51
0.0
 71
     0
 72
  2000
 73
     1
 74
     3
 75
     0
 76
     0
 77
     0
 78
     0
281
     0
 65
     1
110
0.0
120
0.0
130
0.0
111
1.0
121
0.0
131
0.0
112
0.0
122
1.0
132
0.0
 79
     0
146
0.0
  0
ENDTAB
  0
TABLE
  2
LTYPE
  5
5
330
0
100
AcDbSymbolTable
 70
     6
  0
LTYPE
  5
14
330
5
100
AcDbSymbolTableRecord
100
AcDbLinetypeTableRecord
  2
ByBlock
 70
     0
  3

 72
    65
 73
     0
 40
0.0
  0
LTYPE
  5
15
330
5
100
AcDbSymbolTableRecord
100
AcDbLinetypeTableRecord
  2
ByLayer
 70
     0
  3

 72
    65
 73
     0
 40
0.0
  0
LTYPE
  5
16
330
5
100
AcDbSymbolTableRecord
100
AcDbLinetypeTableRecord
  2
Continuous
 70
     0
  3
Solid line
 72
    65
 73
     0
 40
0.0
  0
LTYPE
  5
6E
330
5
100
AcDbSymbolTableRecord
100
AcDbLinetypeTableRecord
  2
HIDDEN
 70
     0
  3
Hidden __ __ __ __ __ __ __ __ __ __ __ __ __ __
 72
    65
 73
     2
 40
1.905
 49
1.27
 74
     0
 49
-0.635
 74
     0
  0
LTYPE
  5
6F
330
5
100
AcDbSymbolTableRecord
100
AcDbLinetypeTableRecord
  2
PHANTOM
 70
     0
  3
Phantom ______  __  __  ______  __  __  ______
 72
    65
 73
     6
 40
12.7
 49
6.35
 74
     0
 49
-1.27
 74
     0
 49
1.27
 74
     0
 49
-1.27
 74
     0
 49
1.27
 74
     0
 49
-1.27
 74
     0
  0
LTYPE
  5
70
330
5
100
AcDbSymbolTableRecord
100
AcDbLinetypeTableRecord
  2
CENTER
 70
     0
  3
Center ____ _ ____ _ ____ _ ____ _ ____ _ ____
 72
    65
 73
     4
 40
10.16
 49
6.35
 74
     0
 49
-1.27
 74
     0
 49
1.27
 74
     0
 49
-1.27
 74
     0
  0
LTYPE
  5
71
330
5
100
AcDbSymbolTableRecord
100
AcDbLinetypeTableRecord
  2
CENTERX2
 70
     0
  3
Center (2x) ________  __  ________  __  _____
 72
    65
 73
     4
 40
20.32
 49
12.7
 74
     0
 49
-2.54
 74
     0
 49
2.54
 74
     0
 49
-2.54
 74
     0
  0
LTYPE
  5
72
330
5
100
AcDbSymbolTableRecord
100
AcDbLinetypeTableRecord
  2
DOT2
 70
     0
  3
Dot (.5x) ........................................
 72
    65
 73
     2
 40
0.635
 49
0.0
 74
     0
 49
-0.635
 74
     0
  0
ENDTAB
  0
TABLE
  2
LAYER
  5
2
330
0
100
AcDbSymbolTable
 70
    17
  0
LAYER
  5
10
330
2
100
AcDbSymbolTableRecord
100
AcDbLayerTableRecord
  2
0
 70
     0
 62
     7
  6
Continuous
370
    -3
390
F
  0
LAYER
  5
73
330
2
100
AcDbSymbolTableRecord
100
AcDbLayerTableRecord
  2
FORMAT
 70
     0
 62
     7
  6
Continuous
370
    -3
390
F
  0
LAYER
  5
74
330
2
100
AcDbSymbolTableRecord
100
AcDbLayerTableRecord
  2
YARDIMCI_GEOMETRI
 70
     0
 62
    -6
  6
Continuous
290
     0
370
    -3
390
F
  0
LAYER
  5
75
330
2
100
AcDbSymbolTableRecord
100
AcDbLayerTableRecord
  2
SAYFA_CERCEVESI
 70
     0
 62
     7
  6
Continuous
370
    25
390
F
  0
LAYER
  5
76
330
2
100
AcDbSymbolTableRecord
100
AcDbLayerTableRecord
  2
ANTET
 70
     0
 62
     7
  6
Continuous
370
    -3
390
F
  0
LAYER
  5
77
330
2
100
AcDbSymbolTableRecord
100
AcDbLayerTableRecord
  2
OLCU
 70
     0
 62
   150
  6
Continuous
370
    -3
390
F
  0
LAYER
  5
78
330
2
100
AcDbSymbolTableRecord
100
AcDbLayerTableRecord
  2
METIN
 70
     0
 62
    96
  6
Continuous
370
    -3
390
F
  0
LAYER
  5
79
330
2
100
AcDbSymbolTableRecord
100
AcDbLayerTableRecord
  2
BALON
 70
     0
 62
     5
  6
Continuous
370
    -3
390
F
  0
LAYER
  5
7A
330
2
100
AcDbSymbolTableRecord
100
AcDbLayerTableRecord
  2
VURGU
 70
     0
 62
     7
  6
Continuous
370
    -3
390
F
  0
LAYER
  5
7B
330
2
100
AcDbSymbolTableRecord
100
AcDbLayerTableRecord
  2
SILIK
 70
     0
 62
     7
  6
Continuous
370
    -3
390
F
  0
LAYER
  5
7C
330
2
100
AcDbSymbolTableRecord
100
AcDbLayerTableRecord
  2
MODEL
 70
     0
 62
     7
  6
Continuous
370
    -3
390
F
  0
LAYER
  5
7D
330
2
100
AcDbSymbolTableRecord
100
AcDbLayerTableRecord
  2
DETAYLANDıRMA
 70
     0
 62
   190
  6
Continuous
370
    -3
390
F
  0
LAYER
  5
7E
330
2
100
AcDbSymbolTableRecord
100
AcDbLayerTableRecord
  2
TOLERANS
 70
     0
 62
   230
  6
Continuous
370
    -3
390
F
  0
LAYER
  5
7F
330
2
100
AcDbSymbolTableRecord
100
AcDbLayerTableRecord
  2
MERKEZ_CIZGILERI
 70
     0
 62
    30
  6
Continuous
370
    -3
390
F
  0
LAYER
  5
80
330
2
100
AcDbSymbolTableRecord
100
AcDbLayerTableRecord
  2
KESIT-DETAY_CIZGILERI
 70
     0
 62
     7
  6
Continuous
370
    -3
390
F
  0
LAYER
  5
81
330
2
100
AcDbSymbolTableRecord
100
AcDbLayerTableRecord
  2
\U+041E\U+0421\U+0415\U+0412\U+042B\U+0415
 70
     0
 62
     7
  6
Continuous
370
    -3
390
F
  0
LAYER
  5
82
330
2
100
AcDbSymbolTableRecord
100
AcDbLayerTableRecord
  2
\U+0412\U+041E\U+0414\U+042F\U+041D\U+042B\U+0415_\U+0417\U+041D\U+0410\U+041A\U+0418
 70
     0
 62
    11
  6
Continuous
370
    -3
390
F
  0
ENDTAB
  0
TABLE
  2
STYLE
  5
3
330
0
100
AcDbSymbolTable
 70
     1
  0
STYLE
  5
11
330
3
100
AcDbSymbolTableRecord
100
AcDbTextStyleTableRecord
  2
Standard
 70
     0
 40
0.0
 41
1.0
 50
0.0
 71
     0
 42
3.5
  3
txt
  4

  0
ENDTAB
  0
TABLE
  2
VIEW
  5
6
330
0
100
AcDbSymbolTable
 70
     0
  0
ENDTAB
  0
TABLE
  2
UCS
  5
7
330
0
100
AcDbSymbolTable
 70
     0
  0
ENDTAB
  0
TABLE
  2
APPID
  5
9
330
0
100
AcDbSymbolTable
 70
     1
  0
APPID
  5
12
330
9
100
AcDbSymbolTableRecord
100
AcDbRegAppTableRecord
  2
ACAD
 70
     0
  0
ENDTAB
  0
TABLE
  2
DIMSTYLE
  5
A
330
0
100
AcDbSymbolTable
 70
     1
100
AcDbDimStyleTable
  0
DIMSTYLE
105
27
330
A
100
AcDbSymbolTableRecord
100
AcDbDimStyleTableRecord
  2
ISO-25
 70
     0
 41
2.5
 42
0.625
 43
3.75
 44
1.25
 73
     0
 74
     0
 77
     1
 78
     8
140
2.5
141
2.5
143
0.0393700787
147
0.625
171
     3
172
     1
178
     0
271
     2
272
     2
274
     3
278
    44
283
     0
284
     8
340
11
  0
ENDTAB
  0
TABLE
  2
BLOCK_RECORD
  5
1
330
0
100
AcDbSymbolTable
 70
     2
  0
BLOCK_RECORD
  5
1F
330
1
100
AcDbSymbolTableRecord
100
AcDbBlockTableRecord
  2
*Model_Space
340
22
  0
BLOCK_RECORD
  5
1B
330
1
100
AcDbSymbolTableRecord
100
AcDbBlockTableRecord
  2
*Paper_Space
340
1E
  0
BLOCK_RECORD
  5
23
330
1
100
AcDbSymbolTableRecord
100
AcDbBlockTableRecord
  2
*Paper_Space0
340
26
  0
BLOCK_RECORD
  5
88
330
1
100
AcDbSymbolTableRecord
100
AcDbBlockTableRecord
  2
SW_CENTERMARKSYMBOL_0
340
0
102
{BLKREFS
331
93
102
}
  0
ENDTAB
  0
ENDSEC
  0
SECTION
  2
BLOCKS
  0
BLOCK
  5
20
330
1F
100
AcDbEntity
  8
0
100
AcDbBlockBegin
  2
*Model_Space
 70
     0
 10
0.0
 20
0.0
 30
0.0
  3
*Model_Space
  1

  0
ENDBLK
  5
21
330
1F
100
AcDbEntity
  8
0
100
AcDbBlockEnd
  0
BLOCK
  5
1C
330
1B
100
AcDbEntity
 67
     1
  8
0
100
AcDbBlockBegin
  2
*Paper_Space
 70
     0
 10
0.0
 20
0.0
 30
0.0
  3
*Paper_Space
  1

  0
ENDBLK
  5
1D
330
1B
100
AcDbEntity
 67
     1
  8
0
100
AcDbBlockEnd
  0
BLOCK
  5
24
330
23
100
AcDbEntity
  8
0
100
AcDbBlockBegin
  2
*Paper_Space0
 70
     0
 10
0.0
 20
0.0
 30
0.0
  3
*Paper_Space0
  1

  0
ENDBLK
  5
25
330
23
100
AcDbEntity
  8
0
100
AcDbBlockEnd
  0
BLOCK
  5
89
330
88
100
AcDbEntity
  8
0
100
AcDbBlockBegin
  2
SW_CENTERMARKSYMBOL_0
 70
     0
 10
0.0
 20
0.0
 30
0.0
  3
SW_CENTERMARKSYMBOL_0
  1

  0
LINE
  5
8B
330
88
100
AcDbEntity
  8
FORMAT
 62
     0
100
AcDbLine
 10
0.0
 20
0.0
 30
0.0
 11
0.0
 21
2.5
 31
0.0
  0
LINE
  5
8C
330
88
100
AcDbEntity
  8
FORMAT
 62
     0
100
AcDbLine
 10
0.0
 20
0.0
 30
0.0
 11
-2.5
 21
0.0
 31
0.0
  0
LINE
  5
8D
330
88
100
AcDbEntity
  8
FORMAT
 62
     0
100
AcDbLine
 10
0.0
 20
0.0
 30
0.0
 11
0.0
 21
-2.5
 31
0.0
  0
LINE
  5
8E
330
88
100
AcDbEntity
  8
FORMAT
 62
     0
100
AcDbLine
 10
0.0
 20
0.0
 30
0.0
 11
2.5
 21
0.0
 31
0.0
  0
LINE
  5
8F
330
88
100
AcDbEntity
  8
FORMAT
 62
     0
100
AcDbLine
 10
0.0
 20
5.0
 30
0.0
 11
0.0
 21
105.35
 31
0.0
  0
LINE
  5
90
330
88
100
AcDbEntity
  8
FORMAT
 62
     0
100
AcDbLine
 10
-5.0
 20
0.0
 30
0.0
 11
-105.35
 21
0.0
 31
0.0
  0
LINE
  5
91
330
88
100
AcDbEntity
  8
FORMAT
 62
     0
100
AcDbLine
 10
0.0
 20
-5.0
 30
0.0
 11
0.0
 21
-105.35
 31
0.0
  0
LINE
  5
92
330
88
100
AcDbEntity
  8
FORMAT
 62
     0
100
AcDbLine
 10
5.0
 20
0.0
 30
0.0
 11
105.35
 21
0.0
 31
0.0
  0
ENDBLK
  5
8A
330
88
100
AcDbEntity
  8
0
100
AcDbBlockEnd
  0
ENDSEC
  0
SECTION
  2
ENTITIES
  0
CIRCLE
  5
83
330
1F
100
AcDbEntity
  8
0
  6
Continuous
 62
     7
370
    25
100
AcDbCircle
 10
137.9424909615
 20
108.5958316346
 30
0.0
 40
84.13999999999999
  0
CIRCLE
  5
84
330
1F
100
AcDbEntity
  8
0
  6
Continuous
 62
     7
370
    25
100
AcDbCircle
 10
137.9424909615
 20
108.5958316346
 30
0.0
 40
77.03999999999999
  0
CIRCLE
  5
85
330
1F
100
AcDbEntity
  8
0
  6
Continuous
 62
     7
370
    25
100
AcDbCircle
 10
137.9424909615
 20
108.5958316346
 30
0.0
 40
84.5
  0
CIRCLE
  5
86
330
1F
100
AcDbEntity
  8
0
  6
Continuous
 62
     7
370
    25
100
AcDbCircle
 10
137.9424909615
 20
108.5958316346
 30
0.0
 40
102.85
  0
CIRCLE
  5
87
330
1F
100
AcDbEntity
  8
0
  6
Continuous
 62
     7
370
    25
100
AcDbCircle
 10
137.9424909615
 20
108.5958316346
 30
0.0
 40
73.6
  0
INSERT
  5
93
330
1F
100
AcDbEntity
  8
FORMAT
 62
     7
100
AcDbBlockReference
  2
SW_CENTERMARKSYMBOL_0
 10
137.9424909615
 20
108.5958316346
 30
0.0
  0
LINE
  5
94
330
1F
100
AcDbEntity
  8
0
  6
Continuous
 62
     7
370
    25
100
AcDbLine
 10
-612.3929967751
 20
211.4458316346
 30
0.0
 11
-669.3929967751
 21
198.5958316346
 31
0.0
  0
LINE
  5
95
330
1F
100
AcDbEntity
  8
0
  6
Continuous
 62
     7
370
    25
100
AcDbLine
 10
-669.3929967751
 20
18.5958316346
 30
0.0
 11
-612.3929967751
 21
5.7458316346
 31
0.0
  0
LINE
  5
96
330
1F
100
AcDbEntity
  8
0
  6
Continuous
 62
     7
370
    25
100
AcDbLine
 10
-504.3929967751
 20
211.4458316346
 30
0.0
 11
-612.3929967751
 21
211.4458316346
 31
0.0
  0
LINE
  5
97
330
1F
100
AcDbEntity
  8
0
  6
Continuous
 62
     7
370
    25
100
AcDbLine
 10
-612.3929967751
 20
5.7458316346
 30
0.0
 11
-504.3929967751
 21
5.7458316346
 31
0.0
  0
LINE
  5
98
330
1F
100
AcDbEntity
  8
0
  6
Continuous
 62
     7
370
    25
100
AcDbLine
 10
-669.3929967751
 20
198.5958316346
 30
0.0
 11
-779.3929967751
 21
198.5958316346
 31
0.0
  0
LINE
  5
99
330
1F
100
AcDbEntity
  8
0
  6
Continuous
 62
     7
370
    25
100
AcDbLine
 10
-779.3929967751
 20
18.5958316346
 30
0.0
 11
-669.3929967751
 21
18.5958316346
 31
0.0
  0
LINE
  5
9A
330
1F
100
AcDbEntity
  8
0
  6
Continuous
 62
     7
370
    25
100
AcDbLine
 10
-503.3929967751
 20
193.0958316346
 30
0.0
 11
-504.3929967751
 21
193.0958316346
 31
0.0
  0
LINE
  5
9B
330
1F
100
AcDbEntity
  8
0
  6
Continuous
 62
     7
370
    25
100
AcDbLine
 10
-504.3929967751
 20
24.0958316346
 30
0.0
 11
-503.3929967751
 21
24.0958316346
 31
0.0
  0
LINE
  5
9C
330
1F
100
AcDbEntity
  8
0
  6
Continuous
 62
     7
370
    25
100
AcDbLine
 10
-191.3929967751
 20
192.7358316346
 30
0.0
 11
-503.3929967751
 21
192.7358316346
 31
0.0
  0
LINE
  5
9D
330
1F
100
AcDbEntity
  8
0
  6
Continuous
 62
     7
370
    25
100
AcDbLine
 10
-503.3929967751
 20
24.4558316346
 30
0.0
 11
-191.3929967751
 21
24.4558316346
 31
0.0
  0
LINE
  5
9E
330
1F
100
AcDbEntity
  8
0
  6
Continuous
 62
     7
370
    25
100
AcDbLine
 10
-669.3929967751
 20
198.5958316346
 30
0.0
 11
-669.3929967751
 21
18.5958316346
 31
0.0
  0
LINE
  5
9F
330
1F
100
AcDbEntity
  8
0
  6
Continuous
 62
     7
370
    25
100
AcDbLine
 10
-612.3929967751
 20
211.4458316346
 30
0.0
 11
-612.3929967751
 21
5.7458316346
 31
0.0
  0
LINE
  5
A0
330
1F
100
AcDbEntity
  8
0
  6
Continuous
 62
     7
370
    25
100
AcDbLine
 10
-504.3929967751
 20
211.4458316346
 30
0.0
 11
-504.3929967751
 21
5.7458316346
 31
0.0
  0
LINE
  5
A1
330
1F
100
AcDbEntity
  8
0
  6
Continuous
 62
     7
370
    25
100
AcDbLine
 10
-779.3929967751
 20
198.5958316346
 30
0.0
 11
-779.3929967751
 21
18.5958316346
 31
0.0
  0
LINE
  5
A2
330
1F
100
AcDbEntity
  8
0
  6
Continuous
 62
     7
370
    25
100
AcDbLine
 10
-503.3929967751
 20
193.0958316346
 30
0.0
 11
-503.3929967751
 21
24.0958316346
 31
0.0
  0
LINE
  5
A3
330
1F
100
AcDbEntity
  8
0
  6
Continuous
 62
     7
370
    25
100
AcDbLine
 10
-191.3929967751
 20
192.7358316346
 30
0.0
 11
-191.3929967751
 21
24.4558316346
 31
0.0
  0
LINE
  5
A4
330
1F
100
AcDbEntity
  8
0
  6
Continuous
 62
     7
370
    25
100
AcDbLine
 10
932.3592893017
 20
5.7458316346
 30
0.0
 11
989.3592893017
 21
18.5958316346
 31
0.0
  0
LINE
  5
A5
330
1F
100
AcDbEntity
  8
0
  6
Continuous
 62
     7
370
    25
100
AcDbLine
 10
989.3592893017
 20
198.5958316346
 30
0.0
 11
932.3592893017
 21
211.4458316346
 31
0.0
  0
LINE
  5
A6
330
1F
100
AcDbEntity
  8
0
  6
Continuous
 62
     7
370
    25
100
AcDbLine
 10
824.3592893017
 20
5.7458316346
 30
0.0
 11
932.3592893017
 21
5.7458316346
 31
0.0
  0
LINE
  5
A7
330
1F
100
AcDbEntity
  8
0
  6
Continuous
 62
     7
370
    25
100
AcDbLine
 10
932.3592893017
 20
211.4458316346
 30
0.0
 11
824.3592893017
 21
211.4458316346
 31
0.0
  0
LINE
  5
A8
330
1F
100
AcDbEntity
  8
0
  6
Continuous
 62
     7
370
    25
100
AcDbLine
 10
989.3592893017
 20
18.5958316346
 30
0.0
 11
1099.3592893017
 21
18.5958316346
 31
0.0
  0
LINE
  5
A9
330
1F
100
AcDbEntity
  8
0
  6
Continuous
 62
     7
370
    25
100
AcDbLine
 10
1099.3592893017
 20
198.5958316346
 30
0.0
 11
989.3592893017
 21
198.5958316346
 31
0.0
  0
LINE
  5
AA
330
1F
100
AcDbEntity
  8
0
  6
Continuous
 62
     7
370
    25
100
AcDbLine
 10
823.3592893017
 20
24.0958316346
 30
0.0
 11
824.3592893017
 21
24.0958316346
 31
0.0
  0
LINE
  5
AB
330
1F
100
AcDbEntity
  8
0
  6
Continuous
 62
     7
370
    25
100
AcDbLine
 10
824.3592893017
 20
193.0958316346
 30
0.0
 11
823.3592893017
 21
193.0958316346
 31
0.0
  0
LINE
  5
AC
330
1F
100
AcDbEntity
  8
0
  6
Continuous
 62
     7
370
    25
100
AcDbLine
 10
511.3592893017
 20
24.4558316346
 30
0.0
 11
823.3592893017
 21
24.4558316346
 31
0.0
  0
LINE
  5
AD
330
1F
100
AcDbEntity
  8
0
  6
Continuous
 62
     7
370
    25
100
AcDbLine
 10
823.3592893017
 20
192.7358316346
 30
0.0
 11
511.3592893017
 21
192.7358316346
 31
0.0
  0
LINE
  5
AE
330
1F
100
AcDbEntity
  8
0
  6
Continuous
 62
     7
370
    25
100
AcDbLine
 10
989.3592893017
 20
108.5958316346
 30
0.0
 11
989.3592893017
 21
198.5958316346
 31
0.0
  0
LINE
  5
AF
330
1F
100
AcDbEntity
  8
0
  6
Continuous
 62
     7
370
    25
100
AcDbLine
 10
989.3592893017
 20
18.5958316346
 30
0.0
 11
989.3592893017
 21
108.5958316346
 31
0.0
  0
LINE
  5
B0
330
1F
100
AcDbEntity
  8
0
  6
Continuous
 62
     7
370
    25
100
AcDbLine
 10
932.3592893017
 20
108.5958316346
 30
0.0
 11
932.3592893017
 21
211.4458316346
 31
0.0
  0
LINE
  5
B1
330
1F
100
AcDbEntity
  8
0
  6
Continuous
 62
     7
370
    25
100
AcDbLine
 10
932.3592893017
 20
5.7458316346
 30
0.0
 11
932.3592893017
 21
108.5958316346
 31
0.0
  0
LINE
  5
B2
330
1F
100
AcDbEntity
  8
0
  6
Continuous
 62
     7
370
    25
100
AcDbLine
 10
824.3592893017
 20
108.5958316346
 30
0.0
 11
824.3592893017
 21
211.4458316346
 31
0.0
  0
LINE
  5
B3
330
1F
100
AcDbEntity
  8
0
  6
Continuous
 62
     7
370
    25
100
AcDbLine
 10
824.3592893017
 20
5.7458316346
 30
0.0
 11
824.3592893017
 21
108.5958316346
 31
0.0
  0
LINE
  5
B4
330
1F
100
AcDbEntity
  8
0
  6
Continuous
 62
     7
370
    25
100
AcDbLine
 10
1099.3592893017
 20
108.5958316346
 30
0.0
 11
1099.3592893017
 21
198.5958316346
 31
0.0
  0
LINE
  5
B5
330
1F
100
AcDbEntity
  8
0
  6
Continuous
 62
     7
370
    25
100
AcDbLine
 10
1099.3592893017
 20
18.5958316346
 30
0.0
 11
1099.3592893017
 21
108.5958316346
 31
0.0
  0
LINE
  5
B6
330
1F
100
AcDbEntity
  8
0
  6
Continuous
 62
     7
370
    25
100
AcDbLine
 10
823.3592893017
 20
108.5958316346
 30
0.0
 11
823.3592893017
 21
193.0958316346
 31
0.0
  0
LINE
  5
B7
330
1F
100
AcDbEntity
  8
0
  6
Continuous
 62
     7
370
    25
100
AcDbLine
 10
823.3592893017
 20
24.0958316346
 30
0.0
 11
823.3592893017
 21
108.5958316346
 31
0.0
  0
LINE
  5
B8
330
1F
100
AcDbEntity
  8
0
  6
Continuous
 62
     7
370
    25
100
AcDbLine
 10
511.3592893017
 20
108.5958316346
 30
0.0
 11
511.3592893017
 21
192.7358316346
 31
0.0
  0
LINE
  5
B9
330
1F
100
AcDbEntity
  8
0
  6
Continuous
 62
     7
370
    25
100
AcDbLine
 10
511.3592893017
 20
24.4558316346
 30
0.0
 11
511.3592893017
 21
108.5958316346
 31
0.0
  0
LINE
  5
BA
330
1F
100
AcDbEntity
  8
0
  6
Continuous
 62
     7
370
    25
100
AcDbLine
 10
35.0924909615
 20
-599.2265018106
 30
0.0
 11
47.9424909615
 21
-656.2265018106
 31
0.0
  0
LINE
  5
BB
330
1F
100
AcDbEntity
  8
0
  6
Continuous
 62
     7
370
    25
100
AcDbLine
 10
227.9424909615
 20
-656.2265018106
 30
0.0
 11
240.7924909615
 21
-599.2265018106
 31
0.0
  0
LINE
  5
BC
330
1F
100
AcDbEntity
  8
0
  6
Continuous
 62
     7
370
    25
100
AcDbLine
 10
35.0924909615
 20
-491.2265018106
 30
0.0
 11
35.0924909615
 21
-599.2265018106
 31
0.0
  0
LINE
  5
BD
330
1F
100
AcDbEntity
  8
0
  6
Continuous
 62
     7
370
    25
100
AcDbLine
 10
240.7924909615
 20
-599.2265018106
 30
0.0
 11
240.7924909615
 21
-491.2265018106
 31
0.0
  0
LINE
  5
BE
330
1F
100
AcDbEntity
  8
0
  6
Continuous
 62
     7
370
    25
100
AcDbLine
 10
47.9424909615
 20
-656.2265018106
 30
0.0
 11
47.9424909615
 21
-766.2265018106
 31
0.0
  0
LINE
  5
BF
330
1F
100
AcDbEntity
  8
0
  6
Continuous
 62
     7
370
    25
100
AcDbLine
 10
227.9424909615
 20
-766.2265018106
 30
0.0
 11
227.9424909615
 21
-656.2265018106
 31
0.0
  0
LINE
  5
C0
330
1F
100
AcDbEntity
  8
0
  6
Continuous
 62
     7
370
    25
100
AcDbLine
 10
53.4424909615
 20
-490.2265018106
 30
0.0
 11
53.4424909615
 21
-491.2265018106
 31
0.0
  0
LINE
  5
C1
330
1F
100
AcDbEntity
  8
0
  6
Continuous
 62
     7
370
    25
100
AcDbLine
 10
222.4424909615
 20
-491.2265018106
 30
0.0
 11
222.4424909615
 21
-490.2265018106
 31
0.0
  0
LINE
  5
C2
330
1F
100
AcDbEntity
  8
0
  6
Continuous
 62
     7
370
    25
100
AcDbLine
 10
53.8024909615
 20
-178.2265018106
 30
0.0
 11
53.8024909615
 21
-490.2265018106
 31
0.0
  0
LINE
  5
C3
330
1F
100
AcDbEntity
  8
0
  6
Continuous
 62
     7
370
    25
100
AcDbLine
 10
222.0824909615
 20
-490.2265018106
 30
0.0
 11
222.0824909615
 21
-178.2265018106
 31
0.0
  0
LINE
  5
C4
330
1F
100
AcDbEntity
  8
0
  6
Continuous
 62
     7
370
    25
100
AcDbLine
 10
47.9424909615
 20
-656.2265018106
 30
0.0
 11
227.9424909615
 21
-656.2265018106
 31
0.0
  0
LINE
  5
C5
330
1F
100
AcDbEntity
  8
0
  6
Continuous
 62
     7
370
    25
100
AcDbLine
 10
35.0924909615
 20
-599.2265018106
 30
0.0
 11
240.7924909615
 21
-599.2265018106
 31
0.0
  0
LINE
  5
C6
330
1F
100
AcDbEntity
  8
0
  6
Continuous
 62
     7
370
    25
100
AcDbLine
 10
35.0924909615
 20
-491.2265018106
 30
0.0
 11
240.7924909615
 21
-491.2265018106
 31
0.0
  0
LINE
  5
C7
330
1F
100
AcDbEntity
  8
0
  6
Continuous
 62
     7
370
    25
100
AcDbLine
 10
47.9424909615
 20
-766.2265018106
 30
0.0
 11
227.9424909615
 21
-766.2265018106
 31
0.0
  0
LINE
  5
C8
330
1F
100
AcDbEntity
  8
0
  6
Continuous
 62
     7
370
    25
100
AcDbLine
 10
53.4424909615
 20
-490.2265018106
 30
0.0
 11
222.4424909615
 21
-490.2265018106
 31
0.0
  0
LINE
  5
C9
330
1F
100
AcDbEntity
  8
0
  6
Continuous
 62
     7
370
    25
100
AcDbLine
 10
53.8024909615
 20
-178.2265018106
 30
0.0
 11
222.0824909615
 21
-178.2265018106
 31
0.0
  0
LINE
  5
CA
330
1F
100
AcDbEntity
  8
0
  6
Continuous
 62
     7
370
    25
100
AcDbLine
 10
240.7924909615
 20
762.2525982295
 30
0.0
 11
227.9424909615
 21
819.2525982295
 31
0.0
  0
LINE
  5
CB
330
1F
100
AcDbEntity
  8
0
  6
Continuous
 62
     7
370
    25
100
AcDbLine
 10
47.9424909615
 20
819.2525982295
 30
0.0
 11
35.0924909615
 21
762.2525982295
 31
0.0
  0
LINE
  5
CC
330
1F
100
AcDbEntity
  8
0
  6
Continuous
 62
     7
370
    25
100
AcDbLine
 10
240.7924909615
 20
654.2525982295
 30
0.0
 11
240.7924909615
 21
762.2525982295
 31
0.0
  0
LINE
  5
CD
330
1F
100
AcDbEntity
  8
0
  6
Continuous
 62
     7
370
    25
100
AcDbLine
 10
35.0924909615
 20
762.2525982295
 30
0.0
 11
35.0924909615
 21
654.2525982295
 31
0.0
  0
LINE
  5
CE
330
1F
100
AcDbEntity
  8
0
  6
Continuous
 62
     7
370
    25
100
AcDbLine
 10
227.9424909615
 20
819.2525982295
 30
0.0
 11
227.9424909615
 21
929.2525982295
 31
0.0
  0
LINE
  5
CF
330
1F
100
AcDbEntity
  8
0
  6
Continuous
 62
     7
370
    25
100
AcDbLine
 10
47.9424909615
 20
929.2525982295
 30
0.0
 11
47.9424909615
 21
819.2525982295
 31
0.0
  0
LINE
  5
D0
330
1F
100
AcDbEntity
  8
0
  6
Continuous
 62
     7
370
    25
100
AcDbLine
 10
222.4424909615
 20
653.2525982295
 30
0.0
 11
222.4424909615
 21
654.2525982295
 31
0.0
  0
LINE
  5
D1
330
1F
100
AcDbEntity
  8
0
  6
Continuous
 62
     7
370
    25
100
AcDbLine
 10
53.4424909615
 20
654.2525982295
 30
0.0
 11
53.4424909615
 21
653.2525982295
 31
0.0
  0
LINE
  5
D2
330
1F
100
AcDbEntity
  8
0
  6
Continuous
 62
     7
370
    25
100
AcDbLine
 10
222.0824909615
 20
341.2525982295
 30
0.0
 11
222.0824909615
 21
653.2525982295
 31
0.0
  0
LINE
  5
D3
330
1F
100
AcDbEntity
  8
0
  6
Continuous
 62
     7
370
    25
100
AcDbLine
 10
53.8024909615
 20
653.2525982295
 30
0.0
 11
53.8024909615
 21
341.2525982295
 31
0.0
  0
LINE
  5
D4
330
1F
100
AcDbEntity
  8
0
  6
Continuous
 62
     7
370
    25
100
AcDbLine
 10
227.9424909615
 20
819.2525982295
 30
0.0
 11
47.9424909615
 21
819.2525982295
 31
0.0
  0
LINE
  5
D5
330
1F
100
AcDbEntity
  8
0
  6
Continuous
 62
     7
370
    25
100
AcDbLine
 10
240.7924909615
 20
762.2525982295
 30
0.0
 11
35.0924909615
 21
762.2525982295
 31
0.0
  0
LINE
  5
D6
330
1F
100
AcDbEntity
  8
0
  6
Continuous
 62
     7
370
    25
100
AcDbLine
 10
240.7924909615
 20
654.2525982295
 30
0.0
 11
35.0924909615
 21
654.2525982295
 31
0.0
  0
LINE
  5
D7
330
1F
100
AcDbEntity
  8
0
  6
Continuous
 62
     7
370
    25
100
AcDbLine
 10
227.9424909615
 20
929.2525982295
 30
0.0
 11
47.9424909615
 21
929.2525982295
 31
0.0
  0
LINE
  5
D8
330
1F
100
AcDbEntity
  8
0
  6
Continuous
 62
     7
370
    25
100
AcDbLine
 10
222.4424909615
 20
653.2525982295
 30
0.0
 11
53.4424909615
 21
653.2525982295
 31
0.0
  0
LINE
  5
D9
330
1F
100
AcDbEntity
  8
0
  6
Continuous
 62
     7
370
    25
100
AcDbLine
 10
222.0824909615
 20
341.2525982295
 30
0.0
 11
53.8024909615
 21
341.2525982295
 31
0.0
  0
LINE
  5
DA
330
1F
100
AcDbEntity
  8
0
  6
Continuous
 62
     7
370
    25
100
AcDbLine
 10
446.7450388994
 20
-291.8476556598
 30
0.0
 11
667.3623546296
 21
-419.2073211041
 31
0.0
  0
LINE
  5
DB
330
1F
100
AcDbEntity
  8
0
  6
Continuous
 62
     7
370
    25
100
AcDbLine
 10
751.4955167936
 20
-273.4686185427
 30
0.0
 11
530.8782010634
 21
-146.1089530984
 31
0.0
  0
LINE
  5
DC
330
1F
100
AcDbEntity
  8
0
  6
Continuous
 62
     7
370
    25
100
AcDbLine
 10
658.7152216669
 20
-435.8192993752
 30
0.0
 11
735.0827540351
 21
-479.9053374136
 31
0.0
  0
LINE
  5
DD
330
1F
100
AcDbEntity
  8
0
  6
Continuous
 62
     7
370
    25
100
AcDbLine
 10
837.9243956867
 20
-301.7590864219
 30
0.0
 11
761.5568633186
 21
-257.6730483835
 31
0.0
  0
LINE
  5
DE
330
1F
100
AcDbEntity
  8
0
  6
Continuous
 62
     7
370
    25
100
AcDbLine
 10
667.1823692577
 20
-419.5190986946
 30
0.0
 11
667.8894760389
 21
-419.9273027505
 31
0.0
  0
LINE
  5
DF
330
1F
100
AcDbEntity
  8
0
  6
Continuous
 62
     7
370
    25
100
AcDbLine
 10
752.3826089466
 20
-273.5650450082
 30
0.0
 11
751.6755021654
 21
-273.1568409523
 31
0.0
  0
LINE
  5
E0
330
1F
100
AcDbEntity
  8
0
  6
Continuous
 62
     7
370
    25
100
AcDbLine
 10
743.9393485604
 20
-483.499289669
 30
0.0
 11
789.5623768281
 21
-495.1891673401
 31
0.0
  0
LINE
  5
E1
330
1F
100
AcDbEntity
  8
0
  6
Continuous
 62
     7
370
    25
100
AcDbLine
 10
878.4041021403
 20
-341.2941104174
 30
0.0
 11
845.4656979866
 21
-307.6314385078
 31
0.0
  0
LINE
  5
E2
330
1F
100
AcDbEntity
  8
0
  6
Continuous
 62
     7
370
    25
100
AcDbLine
 10
785.4226949061
 20
-494.1284667004
 30
0.0
 11
859.5940643504
 21
-536.9466868692
 31
0.0
  0
LINE
  5
E3
330
1F
100
AcDbEntity
  8
0
  6
Continuous
 62
     7
370
    25
100
AcDbLine
 10
949.5867502877
 20
-381.0578916407
 30
0.0
 11
875.4153808433
 21
-338.2396714719
 31
0.0
  0
LWPOLYLINE
  5
E4
330
1F
100
AcDbEntity
  8
0
  6
Continuous
 62
     7
370
    25
100
AcDbPolyline
 90
       14
 70
   128
 43
0.0
 10
768.9249002806
 20
-311.9916805591
 10
768.8001269047
 20
-307.6165298307
 10
768.4263301201
 20
-303.4037902782
 10
767.8050777602
 20
-299.3711315955
 10
766.9389755735
 20
-295.5354681545
 10
765.8316562934
 20
-291.9128880605
 10
764.4877644018
 20
-288.5185856735
 10
762.9129366485
 20
-285.3667978774
 10
761.1137784082
 20
-282.4707443653
 10
759.0978359758
 20
-279.8425721922
 10
756.8735649146
 20
-277.4933048256
 10
754.4502945904
 20
-275.4327959092
 10
751.838189041
 20
-273.6696879335
 10
751.4955167936
 20
-273.4686185427
  0
LWPOLYLINE
  5
E5
330
1F
100
AcDbEntity
  8
0
  6
Continuous
 62
     7
370
    25
100
AcDbPolyline
 90
       38
 70
   128
 43
0.0
 10
667.3623546296
 20
-419.2073211041
 10
668.3931542962
 20
-419.7739197724
 10
671.2677350021
 20
-421.0774589885
 10
674.3023770457
 20
-422.0675148133
 10
677.4843520837
 20
-422.7399346084
 10
680.800313807
 20
-423.0918980117
 10
684.2363539197
 20
-423.1219287663
 10
687.7780604755
 20
-422.8299009128
 10
691.4105783262
 20
-422.2170393174
 10
695.1186714296
 20
-421.2859145348
 10
698.8867867546
 20
-420.0404320257
 10
702.699119516
 20
-418.4858157768
 10
706.5396794652
 20
-416.6285863889
 10
710.3923579593
 20
-414.4765337273
 10
714.2409955256
 20
-412.0386842489
 10
718.0694496408
 20
-409.3252631415
 10
721.8616624377
 20
-406.3476514364
 10
725.6017280581
 20
-403.1183382717
 10
729.273959367
 20
-399.6508685092
 10
732.86295375
 20
-395.9597859221
 10
736.3536577174
 20
-392.0605721934
 10
739.7314300438
 20
-387.9695819807
 10
742.982103178
 20
-383.7039743186
 10
746.0920426674
 20
-379.281640648
 10
749.0482043448
 20
-374.7211297732
 10
751.838189041
 20
-370.0415700618
 10
754.4502945904
 20
-365.2625892134
 10
756.8735649146
 20
-360.4042319345
 10
759.0978359758
 20
-355.4868758639
 10
761.1137784082
 20
-350.5311461019
 10
762.9129366485
 20
-345.5578287014
 10
764.4877644018
 20
-340.5877834839
 10
765.8316562934
 20
-335.6418565462
 10
766.9389755735
 20
-330.7407928248
 10
767.8050777602
 20
-325.905149084
 10
768.4263301201
 20
-321.1552076944
 10
768.8001269047
 20
-316.5108915608
 10
768.9249002806
 20
-311.9916805591
  0
LWPOLYLINE
  5
E6
330
1F
100
AcDbEntity
  8
0
  6
Continuous
 62
     7
370
    25
100
AcDbPolyline
 90
       98
 70
   128
 43
0.0
 10
548.3075845504
 20
-184.6320151147
 10
548.1828111745
 20
-180.2568643863
 10
547.8090143899
 20
-176.0441248339
 10
547.18776203
 20
-172.0114661512
 10
546.3216598432
 20
-168.1758027101
 10
545.2143405632
 20
-164.5532226162
 10
543.8704486716
 20
-161.1589202292
 10
542.2956209182
 20
-158.007132433
 10
540.4964626779
 20
-155.1110789209
 10
538.4805202456
 20
-152.4829067479
 10
536.2562491844
 20
-150.1336393813
 10
533.8329788602
 20
-148.0731304649
 10
531.2208733108
 20
-146.3100224891
 10
528.4308886146
 20
-144.8517105417
 10
525.4747269372
 20
-143.7043112896
 10
522.3647874478
 20
-142.8726373241
 10
519.1141143136
 20
-142.3601769748
 10
515.7363419872
 20
-142.1690796785
 10
512.2456380198
 20
-142.3001469637
 10
508.6566436368
 20
-142.7528290887
 10
504.9844123279
 20
-143.5252273472
 10
501.2443467075
 20
-144.6141020326
 10
497.4521339106
 20
-146.0148860261
 10
493.6236797954
 20
-147.7217039527
 10
489.7750422291
 20
-149.7273968249
 10
485.922363735
 20
-152.0235520698
 10
482.0818037858
 20
-154.6005388143
 10
478.2694710244
 20
-157.4475482804
 10
474.5013556994
 20
-160.5526391211
 10
470.793262596
 20
-163.9027875062
 10
467.1607447453
 20
-167.4839417491
 10
463.6190381895
 20
-171.2810812445
 10
460.1829980768
 20
-175.2782794697
 10
456.8670363535
 20
-179.4587707862
 10
453.6850613155
 20
-183.8050207605
 10
450.6504192719
 20
-188.29879971
 10
447.775838566
 20
-192.9212591639
 10
445.0733761883
 20
-197.6530109209
 10
442.5543672052
 20
-202.4742083698
 10
440.2293772157
 20
-207.3646297328
 10
438.108158036
 20
-212.3037628834
 10
436.1996067963
 20
-217.2708913806
 10
434.5117286239
 20
-222.2451813613
 10
433.0516030664
 20
-227.2057689246
 10
431.8253543979
 20
-232.1318476423
 10
430.8381259313
 20
-237.0027558284
 10
430.0940584459
 20
-241.7980632012
 10
429.5962728195
 20
-246.497656575
 10
429.3468569378
 20
-251.0818242222
 10
429.3468569378
 20
-255.5313385503
 10
429.5962728195
 20
-259.82753675
 10
430.0940584459
 20
-263.952399073
 10
430.8381259313
 20
-267.8886244133
 10
431.8253543979
 20
-271.6197028739
 10
433.0516030664
 20
-275.129985015
 10
434.5117286239
 20
-278.4047474934
 10
436.1996067963
 20
-281.4302548172
 10
438.108158036
 20
-284.1938169573
 10
440.2293772157
 20
-286.6838425736
 10
442.5543672052
 20
-288.8898876335
 10
445.0733761883
 20
-290.8026992171
 10
447.775838566
 20
-292.4142543281
 10
450.6504192719
 20
-293.7177935442
 10
453.6850613155
 20
-294.7078493689
 10
456.8670363535
 20
-295.3802691641
 10
460.1829980768
 20
-295.7322325674
 10
463.6190381895
 20
-295.7622633219
 10
467.1607447453
 20
-295.4702354684
 10
470.793262596
 20
-294.8573738731
 10
474.5013556994
 20
-293.9262490904
 10
478.2694710244
 20
-292.6807665814
 10
482.0818037858
 20
-291.1261503325
 10
485.922363735
 20
-289.2689209445
 10
489.7750422291
 20
-287.1168682829
 10
493.6236797954
 20
-284.6790188045
 10
497.4521339106
 20
-281.9655976972
 10
501.2443467075
 20
-278.987985992
 10
504.9844123279
 20
-275.7586728274
 10
508.6566436368
 20
-272.2912030649
 10
512.2456380198
 20
-268.6001204777
 10
515.7363419872
 20
-264.7009067491
 10
519.1141143136
 20
-260.6099165363
 10
522.3647874478
 20
-256.3443088742
 10
525.4747269372
 20
-251.9219752036
 10
528.4308886146
 20
-247.3614643289
 10
531.2208733108
 20
-242.6819046175
 10
533.8329788602
 20
-237.902923769
 10
536.2562491844
 20
-233.0445664901
 10
538.4805202456
 20
-228.1272104196
 10
540.4964626779
 20
-223.1714806576
 10
542.2956209182
 20
-218.1981632571
 10
543.8704486716
 20
-213.2281180396
 10
545.2143405632
 20
-208.2821911019
 10
546.3216598432
 20
-203.3811273804
 10
547.18776203
 20
-198.5454836397
 10
547.8090143899
 20
-193.7955422501
 10
548.1828111745
 20
-189.1512261165
 10
548.3075845504
 20
-184.6320151147
  0
LWPOLYLINE
  5
E7
330
1F
100
AcDbEntity
  8
0
  6
Continuous
 62
     7
370
    25
100
AcDbPolyline
 90
       94
 70
   128
 43
0.0
 10
543.287126404
 20
-187.5302639117
 10
543.1628467833
 20
-183.3552203407
 10
542.7905749808
 20
-179.3427167317
 10
542.1720095872
 20
-175.5110612184
 10
541.3099729746
 20
-171.8777367659
 10
540.2083984183
 20
-168.4593214004
 10
538.8723121504
 20
-165.2714125672
 10
537.307810426
 20
-162.3285559632
 10
535.5220317078
 20
-159.644179168
 10
533.5231240943
 20
-157.2305303772
 10
531.3202081426
 20
-155.0986225167
 10
528.9233352529
 20
-153.2581829931
 10
526.3434418064
 20
-151.7176093098
 10
523.5922992653
 20
-150.4839307512
 10
520.6824604619
 20
-149.5627763096
 10
517.6272023233
 20
-148.9583490014
 10
514.4404652916
 20
-148.6734066898
 10
511.1367897169
 20
-148.7092495012
 10
507.7312495133
 20
-149.0657138931
 10
504.2393833795
 20
-149.7411734002
 10
500.6771238999
 20
-150.7325460558
 10
497.0607248474
 20
-152.0353084537
 10
493.4066870213
 20
-153.643516388
 10
489.7316829583
 20
-155.5498319747
 10
486.052480859
 20
-157.745557133
 10
482.3858680786
 20
-160.2206732726
 10
478.7485745304
 20
-162.9638870063
 10
475.1571963505
 20
-165.962681679
 10
471.6281201738
 20
-169.2033744784
 10
468.1774483655
 20
-172.6711788666
 10
464.8209255497
 20
-176.3502720475
 10
461.5738667701
 20
-180.2238671627
 10
458.4510876111
 20
-184.2742898862
 10
455.4668365978
 20
-188.4830590682
 10
452.6347301831
 20
-192.8309710601
 10
449.967690619
 20
-197.2981873368
 10
447.4778869954
 20
-201.864325015
 10
445.1766797151
 20
-206.5085498557
 10
443.0745686591
 20
-211.2096713263
 10
441.181145278
 20
-215.9462392877
 10
439.5050488284
 20
-220.6966418667
 10
438.0539269541
 20
-225.4392040658
 10
436.8344007913
 20
-230.1522866615
 10
435.8520347581
 20
-234.814384939
 10
435.1113111655
 20
-239.404226813
 10
434.6156097653
 20
-243.9008698879
 10
434.3671923293
 20
-248.2837970125
 10
434.3671923293
 20
-252.5330098958
 10
434.6156097653
 20
-256.629120354
 10
435.1113111655
 20
-260.5534387744
 10
435.8520347581
 20
-264.2880593923
 10
436.8344007913
 20
-267.8159419903
 10
438.0539269541
 20
-271.1209896493
 10
439.5050488284
 20
-274.1881221948
 10
441.181145278
 20
-277.0033450046
 10
443.0745686591
 20
-279.5538128626
 10
445.1766797151
 20
-281.8278885691
 10
447.4778869954
 20
-283.8151960381
 10
449.967690619
 20
-285.5066676414
 10
452.6347301831
 20
-286.8945855821
 10
455.4668365978
 20
-287.972617109
 10
458.4510876111
 20
-288.7358434114
 10
461.5738667701
 20
-289.1807820629
 10
464.8209255497
 20
-289.3054029103
 10
468.1774483655
 20
-289.1091373373
 10
471.6281201738
 20
-288.5928808588
 10
475.1571963505
 20
-287.7589890346
 10
478.7485745304
 20
-286.6112667219
 10
482.3858680786
 20
-285.1549507143
 10
486.052480859
 20
-283.3966858478
 10
489.7316829583
 20
-281.3444946816
 10
493.4066870213
 20
-279.0077408934
 10
497.0607248474
 20
-276.3970865548
 10
500.6771238999
 20
-273.5244434826
 10
504.2393833796
 20
-270.4029188885
 10
507.7312495133
 20
-267.0467555731
 10
511.1367897169
 20
-263.4712669398
 10
514.4404652916
 20
-259.6927671234
 10
517.6272023233
 20
-255.7284965517
 10
520.6824604619
 20
-251.5965432821
 10
523.5922992653
 20
-247.3157604698
 10
526.3434418064
 20
-242.9056803448
 10
528.9233352529
 20
-238.3864250912
 10
531.3202081426
 20
-233.7786150343
 10
533.5231240943
 20
-229.1032745545
 10
535.5220317078
 20
-224.381736158
 10
537.307810426
 20
-219.6355431417
 10
538.8723121504
 20
-214.8863512956
 10
540.2083984183
 20
-210.1558300929
 10
541.3099729746
 20
-205.4655638169
 10
542.1720095872
 20
-200.8369530767
 10
542.7905749808
 20
-196.2911171617
 10
543.1628467833
 20
-191.8487976783
 10
543.287126404
 20
-187.5302639117
  0
LWPOLYLINE
  5
E8
330
1F
100
AcDbEntity
  8
0
  6
Continuous
 62
     7
370
    25
100
AcDbPolyline
 90
       15
 70
   128
 43
0.0
 10
859.2295073059
 20
-348.8484247673
 10
859.1041566284
 20
-343.9921303782
 10
858.7285367054
 20
-339.2973034536
 10
858.1039423767
 20
-334.7801280345
 10
857.2325267484
 20
-330.4561757605
 10
856.1172937705
 20
-326.3403521906
 10
854.7620878824
 20
-322.4468454215
 10
853.1715807593
 20
-318.7890771775
 10
851.3512552088
 20
-315.3796565435
 10
849.3073862702
 20
-312.2303364987
 10
847.0470195832
 20
-309.3519734018
 10
844.5779470999
 20
-306.7544895666
 10
841.9086802248
 20
-304.446839058
 10
839.0484204737
 20
-302.4369768254
 10
837.9243956867
 20
-301.7590864219
  0
LWPOLYLINE
  5
E9
330
1F
100
AcDbEntity
  8
0
  6
Continuous
 62
     7
370
    25
100
AcDbPolyline
 90
       42
 70
   128
 43
0.0
 10
735.0827540351
 20
-479.9053374136
 10
735.457425035
 20
-480.1185016176
 10
738.5854902596
 20
-481.669018087
 10
741.8787390485
 20
-482.9064012676
 10
745.325818891
 20
-483.8263856434
 10
748.9148469888
 20
-484.4257998375
 10
752.6334512185
 20
-484.702577545
 10
756.468812781
 20
-484.6557646559
 10
760.4077103905
 20
-484.2855225439
 10
764.4365658508
 20
-483.5931275102
 10
768.5414908626
 20
-482.580966384
 10
772.708334899
 20
-481.2525282944
 10
776.9227339854
 20
-479.6123926426
 10
781.170160215
 20
-477.666213316
 10
785.4359718299
 20
-475.4206991979
 10
789.7054636935
 20
-472.8835910407
 10
793.963917983
 20
-470.0636347817
 10
798.1966549243
 20
-466.9705513945
 10
802.3890833963
 20
-463.6150033781
 10
806.5267512295
 20
-460.0085580018
 10
810.5953950257
 20
-456.1636474299
 10
814.5809893269
 20
-452.0935258656
 10
818.4697949638
 20
-447.8122238611
 10
822.2484064179
 20
-443.3344999514
 10
825.9037980327
 20
-438.6757897784
 10
829.423368916
 20
-433.8521528812
 10
832.7949863779
 20
-428.8802173354
 10
836.0070277544
 20
-423.7771224328
 10
839.0484204737
 20
-418.5604595988
 10
841.9086802248
 20
-413.2482117508
 10
844.5779470999
 20
-407.8586913076
 10
847.0470195832
 20
-402.4104770627
 10
849.3073862702
 20
-396.9223501394
 10
851.3512552088
 20
-391.4132292479
 10
853.1715807593
 20
-385.9021054693
 10
854.7620878824
 20
-380.407976789
 10
856.1172937705
 20
-374.9497826067
 10
857.2325267484
 20
-369.5463384484
 10
858.1039423767
 20
-364.2162711056
 10
858.7285367054
 20
-358.9779544246
 10
859.1041566284
 20
-353.8494459681
 10
859.2295073059
 20
-348.8484247673
  0
LWPOLYLINE
  5
EA
330
1F
100
AcDbEntity
  8
0
  6
Continuous
 62
     7
370
    25
100
AcDbPolyline
 90
       25
 70
   128
 43
0.0
 10
782.8619749378
 20
-304.7623867289
 10
782.7366242602
 20
-299.9060923398
 10
782.3610043372
 20
-295.2112654152
 10
781.7364100086
 20
-290.6940899961
 10
780.8649943802
 20
-286.370137722
 10
779.7497614024
 20
-282.2543141522
 10
778.3945555142
 20
-278.360807383
 10
776.8040483911
 20
-274.703039139
 10
774.9837228406
 20
-271.293618505
 10
772.9398539021
 20
-268.1442984603
 10
770.679487215
 20
-265.2659353633
 10
768.2104147318
 20
-262.6684515282
 10
765.5411478566
 20
-260.3608010196
 10
762.6808881055
 20
-258.350938787
 10
759.6394953863
 20
-256.6457932418
 10
756.4274540097
 20
-255.2512423741
 10
753.0558365479
 20
-254.1720934894
 10
749.5362656646
 20
-253.4120666377
 10
745.8808740498
 20
-252.9737817888
 10
742.1022625957
 20
-252.8587498015
 10
738.2134569587
 20
-253.0673672149
 10
734.2278626575
 20
-253.5989148814
 10
730.1592188613
 20
-254.4515604463
 10
726.0215510281
 20
-255.6223646636
 10
722.625810367
 20
-256.8024917711
  0
LWPOLYLINE
  5
EB
330
1F
100
AcDbEntity
  8
0
  6
Continuous
 62
     7
370
    25
100
AcDbPolyline
 90
       52
 70
   128
 43
0.0
 10
638.492648203
 20
-402.5411943325
 10
638.940698041
 20
-404.9853346152
 10
639.9344506453
 20
-409.2070420668
 10
641.1702026797
 20
-413.2134339663
 10
642.643694251
 20
-416.9906994508
 10
644.3498459285
 20
-420.5258175036
 10
646.282776254
 20
-423.8066018406
 10
648.4358220161
 20
-426.8217429185
 10
650.8015612201
 20
-429.5608469213
 10
653.3718386729
 20
-432.0144715902
 10
656.1377940956
 20
-434.1741587725
 10
659.0898926669
 20
-436.0324635792
 10
662.2179578914
 20
-437.5829800486
 10
665.5112066804
 20
-438.8203632292
 10
668.9582865229
 20
-439.7403476049
 10
672.5473146207
 20
-440.339761799
 10
676.2659188504
 20
-440.6165395066
 10
680.1012804129
 20
-440.5697266175
 10
684.0401780223
 20
-440.1994845055
 10
688.0690334826
 20
-439.5070894718
 10
692.1739584944
 20
-438.4949283456
 10
696.3408025308
 20
-437.166490256
 10
700.5552016172
 20
-435.5263546041
 10
704.8026278469
 20
-433.5801752775
 10
709.0684394617
 20
-431.3346611595
 10
713.3379313254
 20
-428.7975530022
 10
717.5963856149
 20
-425.9775967433
 10
721.8291225562
 20
-422.8845133561
 10
726.0215510281
 20
-419.5289653397
 10
730.1592188613
 20
-415.9225199634
 10
734.2278626575
 20
-412.0776093915
 10
738.2134569587
 20
-408.0074878272
 10
742.1022625957
 20
-403.7261858227
 10
745.8808740498
 20
-399.248461913
 10
749.5362656646
 20
-394.58975174
 10
753.0558365479
 20
-389.7661148428
 10
756.4274540097
 20
-384.7941792969
 10
759.6394953863
 20
-379.6910843944
 10
762.6808881055
 20
-374.4744215603
 10
765.5411478566
 20
-369.1621737123
 10
768.2104147318
 20
-363.7726532692
 10
770.679487215
 20
-358.3244390243
 10
772.9398539021
 20
-352.8363121009
 10
774.9837228406
 20
-347.3271912095
 10
776.8040483911
 20
-341.8160674309
 10
778.3945555142
 20
-336.3219387506
 10
779.7497614024
 20
-330.8637445683
 10
780.8649943802
 20
-325.46030041
 10
781.7364100086
 20
-320.1302330672
 10
782.3610043372
 20
-314.8919163862
 10
782.7366242602
 20
-309.7634079297
 10
782.8619749378
 20
-304.7623867289
  0
LWPOLYLINE
  5
EC
330
1F
100
AcDbEntity
  8
0
  6
Continuous
 62
     7
370
    25
100
AcDbPolyline
 90
       14
 70
   128
 43
0.0
 10
769.886565503
 20
-312.2529311548
 10
769.7612582739
 20
-307.8590609795
 10
769.3858621685
 20
-303.62829687
 10
768.7619517287
 20
-299.5783841211
 10
767.8921438516
 20
-295.7263094745
 10
766.7800868137
 20
-292.0882298698
 10
765.4304449687
 20
-288.6794046772
 10
763.8488791836
 20
-285.5141316944
 10
762.0420230949
 20
-282.6056871761
 10
760.0174552849
 20
-279.9662701494
 10
757.7836674946
 20
-277.6069512466
 10
755.3500290064
 20
-275.5376262712
 10
752.7267473458
 20
-273.7669746911
 10
752.3826089466
 20
-273.5650450082
  0
LWPOLYLINE
  5
ED
330
1F
100
AcDbEntity
  8
0
  6
Continuous
 62
     7
370
    25
100
AcDbPolyline
 90
       38
 70
   128
 43
0.0
 10
667.8894760389
 20
-419.9273027505
 10
668.9246860678
 20
-420.4963256584
 10
671.8115659067
 20
-421.8054421756
 10
674.8591919191
 20
-422.7997340367
 10
678.0547813025
 20
-423.475030836
 10
681.3849306442
 20
-423.828500144
 10
684.8356721408
 20
-423.8586593877
 10
688.3925321832
 20
-423.5653820686
 10
692.0405920641
 20
-422.9498982939
 10
695.7645505528
 20
-422.0147896163
 10
699.5487880732
 20
-420.7639782066
 10
703.3774322179
 20
-419.2027104026
 10
707.2344243229
 20
-417.3375347039
 10
711.1035868228
 20
-415.1762743057
 10
714.9686911056
 20
-412.7279942852
 10
718.8135255807
 20
-410.0029635796
 10
722.621963676
 20
-407.0126119147
 10
726.3780314788
 20
-403.7694818646
 10
730.0659747352
 20
-400.2871762438
 10
733.6703249297
 20
-396.5803010523
 10
737.1759641649
 20
-392.6644042129
 10
740.5681885716
 20
-388.5559103577
 10
743.8327699817
 20
-384.2720519378
 10
746.9560156062
 20
-379.8307969442
 10
749.9248254677
 20
-375.2507735437
 10
752.7267473458
 20
-370.5511919462
 10
755.3500290064
 20
-365.75176383
 10
757.7836674946
 20
-360.8726196648
 10
760.0174552849
 20
-355.9342242766
 10
762.0420230949
 20
-350.9572910119
 10
763.8488791836
 20
-345.9626948586
 10
765.4304449687
 20
-340.9713848885
 10
766.7800868137
 20
-336.0042963903
 10
767.8921438516
 20
-331.0822630594
 10
768.7619517287
 20
-326.2259296141
 10
769.3858621685
 20
-321.4556652045
 10
769.7612582739
 20
-316.7914779774
 10
769.886565503
 20
-312.2529311548
  0
LWPOLYLINE
  5
EE
330
1F
100
AcDbEntity
  8
0
  6
Continuous
 62
     7
370
    25
100
AcDbPolyline
 90
       15
 70
   128
 43
0.0
 10
769.1794587218
 20
-311.8447270989
 10
769.0541514927
 20
-307.4508569236
 10
768.6787553873
 20
-303.2200928141
 10
768.0548449475
 20
-299.1701800652
 10
767.1850370704
 20
-295.3181054185
 10
766.0729800325
 20
-291.6800258139
 10
764.7233381875
 20
-288.2712006213
 10
763.1417724024
 20
-285.1059276385
 10
761.3349163137
 20
-282.1974831202
 10
759.3103485037
 20
-279.5580660935
 10
757.0765607135
 20
-277.1987471907
 10
754.6429222252
 20
-275.1294222152
 10
752.0196405646
 20
-273.3587706352
 10
749.2177186865
 20
-271.8942191785
 10
747.5993562749
 20
-271.219412951
  0
LWPOLYLINE
  5
EF
330
1F
100
AcDbEntity
  8
0
  6
Continuous
 62
     7
370
    25
100
AcDbPolyline
 90
       39
 70
   128
 43
0.0
 10
663.4661941109
 20
-416.9581155124
 10
665.5035541984
 20
-418.4696713187
 10
668.2175792866
 20
-420.0881216025
 10
671.1044591255
 20
-421.3972381197
 10
674.152085138
 20
-422.3915299808
 10
677.3476745213
 20
-423.0668267801
 10
680.677823863
 20
-423.4202960881
 10
684.1285653596
 20
-423.4504553318
 10
687.685425402
 20
-423.1571780127
 10
691.333485283
 20
-422.541694238
 10
695.0574437717
 20
-421.6065855604
 10
698.841681292
 20
-420.3557741507
 10
702.6703254367
 20
-418.7945063466
 10
706.5273175417
 20
-416.929330648
 10
710.3964800417
 20
-414.7680702498
 10
714.2615843245
 20
-412.3197902293
 10
718.1064187995
 20
-409.5947595237
 10
721.9148568949
 20
-406.6044078588
 10
725.6709246976
 20
-403.3612778087
 10
729.358867954
 20
-399.8789721879
 10
732.9632181485
 20
-396.1720969964
 10
736.4688573837
 20
-392.256200157
 10
739.8610817904
 20
-388.1477063018
 10
743.1256632005
 20
-383.8638478819
 10
746.248908825
 20
-379.4225928883
 10
749.2177186865
 20
-374.8425694878
 10
752.0196405646
 20
-370.1429878903
 10
754.6429222252
 20
-365.3435597741
 10
757.0765607135
 20
-360.4644156088
 10
759.3103485037
 20
-355.5260202206
 10
761.3349163137
 20
-350.549086956
 10
763.1417724024
 20
-345.5544908026
 10
764.7233381875
 20
-340.5631808326
 10
766.0729800325
 20
-335.5960923344
 10
767.1850370704
 20
-330.6740590035
 10
768.0548449475
 20
-325.8177255582
 10
768.6787553873
 20
-321.0474611486
 10
769.0541514927
 20
-316.3832739215
 10
769.1794587218
 20
-311.8447270989
  0
LWPOLYLINE
  5
F0
330
1F
100
AcDbEntity
  8
0
  6
Continuous
 62
     7
370
    25
100
AcDbPolyline
 90
       11
 70
   128
 43
0.0
 10
890.4482716953
 20
-377.3614780727
 10
890.3226934615
 20
-372.8195808824
 10
889.9464543598
 20
-368.440598028
 10
889.3210392342
 20
-364.2418113542
 10
888.4489163125
 20
-360.2397915537
 10
887.3335274653
 20
-356.4503327704
 10
885.9792746229
 20
-352.8883902668
 10
884.3915024025
 20
-349.5680214027
 10
882.5764770158
 20
-346.5023301571
 10
880.5413615386
 20
-343.7034154127
 10
878.4041021403
 20
-341.2941104174
  0
LWPOLYLINE
  5
F1
330
1F
100
AcDbEntity
  8
0
  6
Continuous
 62
     7
370
    25
100
AcDbPolyline
 90
       36
 70
   128
 43
0.0
 10
789.5623768281
 20
-495.1891673401
 10
792.7088529641
 20
-495.8337823734
 10
796.1500453048
 20
-496.1973005579
 10
799.7122331966
 20
-496.2368175846
 10
803.3813583113
 20
-495.9521774978
 10
807.1429402883
 20
-495.344503642
 10
810.9821338821
 20
-494.4161942282
 10
814.8837875495
 20
-493.1709128695
 10
818.832503246
 20
-491.6135741226
 10
822.8126971947
 20
-489.750324092
 10
826.8086613885
 20
-487.5885161744
 10
830.8046255823
 20
-485.136682038
 10
834.7848195311
 20
-482.4044979519
 10
838.7335352275
 20
-479.4027465986
 10
842.6351888949
 20
-476.1432745193
 10
846.4743824887
 20
-472.6389453611
 10
850.2359644657
 20
-468.9035891103
 10
853.9050895804
 20
-464.9519475114
 10
857.4672774722
 20
-460.7996158886
 10
860.9084698129
 20
-456.4629815977
 10
864.2150857885
 20
-451.959159353
 10
867.3740756963
 20
-447.3059236834
 10
870.3729724465
 20
-442.5216387841
 10
873.1999407635
 20
-437.625186042
 10
875.843823895
 20
-432.635889519
 10
878.2941876421
 20
-427.5734396892
 10
880.5413615386
 20
-422.4578157291
 10
882.5764770158
 20
-417.3092066695
 10
884.3915024025
 20
-412.1479317181
 10
885.9792746229
 20
-406.9943600691
 10
887.3335274653
 20
-401.8688305156
 10
888.4489163125
 20
-396.7915711809
 10
889.3210392342
 20
-391.7826196881
 10
889.9464543598
 20
-386.8617440804
 10
890.3226934615
 20
-382.0483648056
 10
890.4482716953
 20
-377.3614780727
  0
LWPOLYLINE
  5
F2
330
1F
100
AcDbEntity
  8
0
  6
Continuous
 62
     7
370
    25
100
AcDbPolyline
 90
       14
 70
   128
 43
0.0
 10
968.2300176258
 20
-422.2639242229
 10
968.104439392
 20
-417.7220270327
 10
967.7282002903
 20
-413.3430441783
 10
967.1027851648
 20
-409.1442575044
 10
966.230662243
 20
-405.1422377039
 10
965.1152733958
 20
-401.3527789206
 10
963.7610205534
 20
-397.790836417
 10
962.173248333
 20
-394.4704675529
 10
960.3582229463
 20
-391.4047763073
 10
958.3231074691
 20
-388.6058615629
 10
956.0759335726
 20
-386.0847693576
 10
953.6255698255
 20
-383.8514492904
 10
950.981686694
 20
-381.9147152555
 10
949.5867502877
 20
-381.0578916407
  0
LWPOLYLINE
  5
F3
330
1F
100
AcDbEntity
  8
0
  6
Continuous
 62
     7
370
    25
100
AcDbPolyline
 90
       39
 70
   128
 43
0.0
 10
859.5940643504
 20
-536.9466868692
 10
861.0260962611
 20
-537.7223678528
 10
864.0249930112
 20
-539.0442002648
 10
867.1839829191
 20
-540.0501438216
 10
870.4905988947
 20
-540.7362285237
 10
873.9317912354
 20
-541.0997467082
 10
877.4939791271
 20
-541.1392637349
 10
881.1631042418
 20
-540.8546236481
 10
884.9246862189
 20
-540.2469497922
 10
888.7638798126
 20
-539.3186403784
 10
892.66553348
 20
-538.0733590197
 10
896.6142491765
 20
-536.5160202729
 10
900.5944431252
 20
-534.6527702423
 10
904.5904073191
 20
-532.4909623247
 10
908.5863715129
 20
-530.0391281883
 10
912.5665654616
 20
-527.3069441022
 10
916.5152811581
 20
-524.3051927489
 10
920.4169348255
 20
-521.0457206695
 10
924.2561284192
 20
-517.5413915114
 10
928.0177103963
 20
-513.8060352605
 10
931.686835511
 20
-509.8543936617
 10
935.2490234027
 20
-505.7020620389
 10
938.6902157434
 20
-501.3654277479
 10
941.996831719
 20
-496.8616055033
 10
945.1558216269
 20
-492.2083698336
 10
948.154718377
 20
-487.4240849344
 10
950.981686694
 20
-482.5276321923
 10
953.6255698255
 20
-477.5383356693
 10
956.0759335726
 20
-472.4758858394
 10
958.3231074691
 20
-467.3602618793
 10
960.3582229463
 20
-462.2116528197
 10
962.173248333
 20
-457.0503778683
 10
963.7610205534
 20
-451.8968062194
 10
965.1152733958
 20
-446.7712766658
 10
966.230662243
 20
-441.6940173312
 10
967.1027851648
 20
-436.6850658384
 10
967.7282002903
 20
-431.7641902306
 10
968.104439392
 20
-426.9508109558
 10
968.2300176258
 20
-422.2639242229
  0
ENDSEC
  0
SECTION
  2
OBJECTS
  0
DICTIONARY
  5
C
330
0
100
AcDbDictionary
281
     1
  3
ACAD_GROUP
350
D
  3
ACAD_LAYOUT
350
1A
  3
ACAD_MLINESTYLE
350
17
  3
ACAD_PLOTSETTINGS
350
19
  3
ACAD_PLOTSTYLENAME
350
E
  3
ACAD_SCALELIST
350
47
  3
DWGPROPS
350
F4
  0
DICTIONARY
  5
D
102
{ACAD_REACTORS
330
C
102
}
330
C
100
AcDbDictionary
281
     1
  0
DICTIONARY
  5
1A
102
{ACAD_REACTORS
330
C
102
}
330
C
100
AcDbDictionary
281
     1
  3
Layout1
350
1E
  3
Layout2
350
26
  3
Model
350
22
  0
DICTIONARY
  5
17
102
{ACAD_REACTORS
330
C
102
}
330
C
100
AcDbDictionary
281
     1
  3
Standard
350
18
  0
DICTIONARY
  5
19
102
{ACAD_REACTORS
330
C
102
}
330
C
100
AcDbDictionary
281
     1
  0
ACDBDICTIONARYWDFLT
  5
E
102
{ACAD_REACTORS
330
C
102
}
330
C
100
AcDbDictionary
281
     1
  3
Normal
350
F
100
AcDbDictionaryWithDefault
340
F
  0
DICTIONARY
  5
47
102
{ACAD_REACTORS
330
C
102
}
330
C
100
AcDbDictionary
281
     1
  3
A0
350
48
  3
A1
350
49
  3
A2
350
4A
  3
A3
350
4B
  3
A4
350
4C
  3
A5
350
4D
  3
A6
350
4E
  3
A7
350
4F
  3
A8
350
50
  3
A9
350
51
  3
B0
350
52
  3
B1
350
53
  3
B2
350
54
  3
B3
350
55
  3
B4
350
56
  3
B5
350
57
  3
B6
350
58
  3
B7
350
59
  3
B8
350
5A
  3
B9
350
5B
  3
C0
350
5C
  3
C1
350
5D
  3
C2
350
5E
  3
C3
350
5F
  3
C4
350
60
  3
C5
350
61
  3
C6
350
62
  3
C7
350
63
  3
C8
350
64
  3
C9
350
65
  3
D0
350
66
  3
D1
350
67
  3
D2
350
68
  0
XRECORD
  5
F4
102
{ACAD_REACTORS
330
C
102
}
330
C
100
AcDbXrecord
280
     1
  1
DWGPROPS COOKIE
  2

  3

  4

  6

  7

  8
b.kav
  9

300
=
301
=
302
=
303
=
304
=
305
=
306
=
307
=
308
=
309
=
 40
0.0
 41
2459935.584712732
 42
2459935.584712905
  1

 90
        0
  0
LAYOUT
  5
1E
102
{ACAD_REACTORS
330
1A
102
}
330
1A
100
AcDbPlotSettings
  1

  2
none_device
  4

  6

 40
0.0
 41
0.0
 42
0.0
 43
0.0
 44
0.0
 45
0.0
 46
0.0
 47
0.0
 48
0.0
 49
0.0
140
0.0
141
0.0
142
1.0
143
1.0
 70
   688
 72
     1
 73
     0
 74
     5
  7

 75
    16
147
1.0
148
0.0
149
0.0
100
AcDbLayout
  1
Layout1
 70
     1
 71
     1
 10
0.0
 20
0.0
 11
420.0
 21
297.0
 12
0.0
 22
0.0
 32
0.0
 14
1.0000000000E+20
 24
1.0000000000E+20
 34
1.0000000000E+20
 15
-1.0000000000E+20
 25
-1.0000000000E+20
 35
-1.0000000000E+20
146
0.0
 13
0.0
 23
0.0
 33
0.0
 16
1.0
 26
0.0
 36
0.0
 17
0.0
 27
1.0
 37
0.0
 76
     0
330
1B
  0
LAYOUT
  5
26
102
{ACAD_REACTORS
330
1A
102
}
330
1A
100
AcDbPlotSettings
  1

  2
none_device
  4

  6

 40
0.0
 41
0.0
 42
0.0
 43
0.0
 44
0.0
 45
0.0
 46
0.0
 47
0.0
 48
0.0
 49
0.0
140
0.0
141
0.0
142
1.0
143
1.0
 70
   688
 72
     1
 73
     0
 74
     5
  7

 75
    16
147
1.0
148
0.0
149
0.0
100
AcDbLayout
  1
Layout2
 70
     1
 71
     2
 10
0.0
 20
0.0
 11
0.0
 21
0.0
 12
0.0
 22
0.0
 32
0.0
 14
0.0
 24
0.0
 34
0.0
 15
0.0
 25
0.0
 35
0.0
146
0.0
 13
0.0
 23
0.0
 33
0.0
 16
1.0
 26
0.0
 36
0.0
 17
0.0
 27
1.0
 37
0.0
 76
     0
330
23
  0
LAYOUT
  5
22
102
{ACAD_REACTORS
330
1A
102
}
330
1A
100
AcDbPlotSettings
  1

  2
none_device
  4
Letter_(8.50_x_11.00_Inches)
  6

 40
6.35
 41
6.35
 42
6.35000508
 43
6.35000508
 44
215.9
 45
279.4
 46
0.0
 47
0.0
 48
0.0
 49
0.0
140
0.0
141
0.0
142
1.0
143
1.0
 70
  1712
 72
     1
 73
     0
 74
     0
  7

 75
     0
147
1.0
148
0.0
149
0.0
100
AcDbLayout
  1
Model
 70
     1
 71
     0
 10
0.0
 20
0.0
 11
279.4
 21
215.9
 12
0.0
 22
0.0
 32
0.0
 14
0.0
 24
0.0
 34
0.0
 15
279.4
 25
215.9
 35
0.0
146
0.0
 13
0.0
 23
0.0
 33
0.0
 16
1.0
 26
0.0
 36
0.0
 17
0.0
 27
1.0
 37
0.0
 76
     0
330
1F
331
29
  0
MLINESTYLE
  5
18
102
{ACAD_REACTORS
330
17
102
}
330
17
100
AcDbMlineStyle
  2
Standard
 70
     0
  3

 62
   256
 51
90.0
 52
90.0
 71
     2
 49
0.5
 62
   256
  6
BYLAYER
 49
-0.5
 62
   256
  6
BYLAYER
  0
ACDBPLACEHOLDER
  5
F
102
{ACAD_REACTORS
330
E
102
}
330
E
  0
SCALE
  5
48
102
{ACAD_REACTORS
330
47
102
}
330
47
100
AcDbScale
 70
     0
300
1:1
140
1.0
141
1.0
290
     1
  0
SCALE
  5
49
102
{ACAD_REACTORS
330
47
102
}
330
47
100
AcDbScale
 70
     0
300
1:2
140
1.0
141
2.0
290
     0
  0
SCALE
  5
4A
102
{ACAD_REACTORS
330
47
102
}
330
47
100
AcDbScale
 70
     0
300
1:4
140
1.0
141
4.0
290
     0
  0
SCALE
  5
4B
102
{ACAD_REACTORS
330
47
102
}
330
47
100
AcDbScale
 70
     0
300
1:5
140
1.0
141
5.0
290
     0
  0
SCALE
  5
4C
102
{ACAD_REACTORS
330
47
102
}
330
47
100
AcDbScale
 70
     0
300
1:8
140
1.0
141
8.0
290
     0
  0
SCALE
  5
4D
102
{ACAD_REACTORS
330
47
102
}
330
47
100
AcDbScale
 70
     0
300
1:10
140
1.0
141
10.0
290
     0
  0
SCALE
  5
4E
102
{ACAD_REACTORS
330
47
102
}
330
47
100
AcDbScale
 70
     0
300
1:16
140
1.0
141
16.0
290
     0
  0
SCALE
  5
4F
102
{ACAD_REACTORS
330
47
102
}
330
47
100
AcDbScale
 70
     0
300
1:20
140
1.0
141
20.0
290
     0
  0
SCALE
  5
50
102
{ACAD_REACTORS
330
47
102
}
330
47
100
AcDbScale
 70
     0
300
1:30
140
1.0
141
30.0
290
     0
  0
SCALE
  5
51
102
{ACAD_REACTORS
330
47
102
}
330
47
100
AcDbScale
 70
     0
300
1:40
140
1.0
141
40.0
290
     0
  0
SCALE
  5
52
102
{ACAD_REACTORS
330
47
102
}
330
47
100
AcDbScale
 70
     0
300
1:50
140
1.0
141
50.0
290
     0
  0
SCALE
  5
53
102
{ACAD_REACTORS
330
47
102
}
330
47
100
AcDbScale
 70
     0
300
1:100
140
1.0
141
100.0
290
     0
  0
SCALE
  5
54
102
{ACAD_REACTORS
330
47
102
}
330
47
100
AcDbScale
 70
     0
300
2:1
140
2.0
141
1.0
290
     0
  0
SCALE
  5
55
102
{ACAD_REACTORS
330
47
102
}
330
47
100
AcDbScale
 70
     0
300
4:1
140
4.0
141
1.0
290
     0
  0
SCALE
  5
56
102
{ACAD_REACTORS
330
47
102
}
330
47
100
AcDbScale
 70
     0
300
8:1
140
8.0
141
1.0
290
     0
  0
SCALE
  5
57
102
{ACAD_REACTORS
330
47
102
}
330
47
100
AcDbScale
 70
     0
300
10:1
140
10.0
141
1.0
290
     0
  0
SCALE
  5
58
102
{ACAD_REACTORS
330
47
102
}
330
47
100
AcDbScale
 70
     0
300
100:1
140
100.0
141
1.0
290
     0
  0
SCALE
  5
59
102
{ACAD_REACTORS
330
47
102
}
330
47
100
AcDbScale
 70
     0
300
1/128" = 1'-0"
140
0.0078125
141
12.0
290
     0
  0
SCALE
  5
5A
102
{ACAD_REACTORS
330
47
102
}
330
47
100
AcDbScale
 70
     0
300
1/64" = 1'-0"
140
0.015625
141
12.0
290
     0
  0
SCALE
  5
5B
102
{ACAD_REACTORS
330
47
102
}
330
47
100
AcDbScale
 70
     0
300
1/32" = 1'-0"
140
0.03125
141
12.0
290
     0
  0
SCALE
  5
5C
102
{ACAD_REACTORS
330
47
102
}
330
47
100
AcDbScale
 70
     0
300
1/16" = 1'-0"
140
0.0625
141
12.0
290
     0
  0
SCALE
  5
5D
102
{ACAD_REACTORS
330
47
102
}
330
47
100
AcDbScale
 70
     0
300
3/32" = 1'-0"
140
0.09375
141
12.0
290
     0
  0
SCALE
  5
5E
102
{ACAD_REACTORS
330
47
102
}
330
47
100
AcDbScale
 70
     0
300
1/8" = 1'-0"
140
0.125
141
12.0
290
     0
  0
SCALE
  5
5F
102
{ACAD_REACTORS
330
47
102
}
330
47
100
AcDbScale
 70
     0
300
3/16" = 1'-0"
140
0.1875
141
12.0
290
     0
  0
SCALE
  5
60
102
{ACAD_REACTORS
330
47
102
}
330
47
100
AcDbScale
 70
     0
300
1/4" = 1'-0"
140
0.25
141
12.0
290
     0
  0
SCALE
  5
61
102
{ACAD_REACTORS
330
47
102
}
330
47
100
AcDbScale
 70
     0
300
3/8" = 1'-0"
140
0.375
141
12.0
290
     0
  0
SCALE
  5
62
102
{ACAD_REACTORS
330
47
102
}
330
47
100
AcDbScale
 70
     0
300
1/2" = 1'-0"
140
0.5
141
12.0
290
     0
  0
SCALE
  5
63
102
{ACAD_REACTORS
330
47
102
}
330
47
100
AcDbScale
 70
     0
300
3/4" = 1'-0"
140
0.75
141
12.0
290
     0
  0
SCALE
  5
64
102
{ACAD_REACTORS
330
47
102
}
330
47
100
AcDbScale
 70
     0
300
1" = 1'-0"
140
1.0
141
12.0
290
     0
  0
SCALE
  5
65
102
{ACAD_REACTORS
330
47
102
}
330
47
100
AcDbScale
 70
     0
300
1-1/2" = 1'-0"
140
1.5
141
12.0
290
     0
  0
SCALE
  5
66
102
{ACAD_REACTORS
330
47
102
}
330
47
100
AcDbScale
 70
     0
300
3" = 1'-0"
140
3.0
141
12.0
290
     0
  0
SCALE
  5
67
102
{ACAD_REACTORS
330
47
102
}
330
47
100
AcDbScale
 70
     0
300
6" = 1'-0"
140
6.0
141
12.0
290
     0
  0
SCALE
  5
68
102
{ACAD_REACTORS
330
47
102
}
330
47
100
AcDbScale
 70
     0
300
1'-0" = 1'-0"
140
12.0
141
12.0
290
     0
  0
ENDSEC
  0
EOF
